When this began...

Taby

A.06

Linkin Park - A.06
Intro - Palm Muted

Eb-|------------------------------------------------------------------------------|

Bb-|------------------------------------------------------------------------------|

Gb-|------------------------------------------------------------------------------|

Db-|------------------------------------------------------------------------------|

Ab-|------------------------------------------------------------------------------|

Db-|-7-0-0-0-1-0-0-0----0-1-0-1-0-0-0---------------------------------------------|

   

                                                                         

Intro cont'd - Palm Muted

Eb-|------------------------------------------------------------------------------|

Bb-|------------------------------------------------------------------------------|

Gb-|------------------------------------------------------------------------------|

Db-|------------------------------------------------------------------------------|

Ab-|-7-0-0-0-1-0-0-0----0-1-0-1-0-0-0---------------------------------------------|

Db-|-7-0-0-0-1-0-0-0----0-1-0-1-0-0-0---------------------------------------------|





Chorus

Eb-|------------------------------------------------------------------------------|

Bb-|------------------------------------------------------------------------------|

Gb-|------------------------------------------------------------------------------|

Db-|------------------------------------------------------------------------------|

Ab-|-0-2-1-0-6-0-2-3-0-3-4-0-7-3-1------------------------------------------------|

Db-|-0-2-1-0-6-0-2-3-0-3-4-0-7-3-1------------------------------------------------|

                                                                             



Eb-|------------------------------------------------------------------------------|

Bb-|------------------------------------------------------------------------------|

Gb-|------------------------------------------------------------------------------|

Db-|------------------------------------------------------------------------------|

Ab-|-0-0-0-0----------------------------------------------------------------------|

Db-|-0-0-0-0----------------------------------------------------------------------|

PM   . . . .                                                                        
Žádné komentáře
 


LP Underground 6.0: The Official Fan Club of Linkin Park