When this began...

Taby

A Place For My Head

Linkin Park - A Place For My Head
Intro and Verse

-----------------------------------------

-----------------------------------------

-----------------------------------------

------9-9-9-10-9-7-----------------------

--7-7---------------10-10-8-8--8-8-8-10--

-----------------------------------------



Second part of Intro

----------------------------

----------------------------

----------------------------

--2-2----2-2----2-2----2-2--

--2-2----2-2----2-2----2-2--

--2-2----2-2----2-2----2-2--



Pre Chorus

--------------------------

--------------------------

--------------------------

--2-------------------12--

--2-------------------10--

--2-------------------10--



Chorus

------------------------------

------------------------------

------------------------------

--2-2--9-10-9-7--5-5-3-3-3-5--

--2-2--9-10-9-7--5-5-3-3-3-5--

--2-2--9-10-9-7--5-5-3-3-3-5--



Bridge

----------------------------------

----------------------------------

----------------------------------

-2-2--2-2-2-2--2-2-2--2-2-2-2-12--

-2-2--2-2-2-2--2-2-2--2-2-2-2-10--

-2-2--2-2-2-2--2-2-2--2-2-2-2-10--

. .  . . . .  . . .  . . . .



Outro

-------------------------------

-------------------------------

-------------------------------

--2-2--2-2-2--2-2-2--2-2-2-12--

--2-2--2-2-2--2-2-2--2-2-2-10--

--2-2--2-2-2--2-2-2--2-2-2-10--
Žádné komentáře
 


LP Underground 6.0: The Official Fan Club of Linkin Park