When this began...

Taby

Carousel

Linkin Park - Carousel
Tuning: Dropped D one half step down

C# G# C# F# A# D#



   [Intro] clean w/ fast flange

-|--------------------------------------------------------------------------|-

-|--------------------------------------------------------------------------|-

-|-1--4--1--2---------------------------------------------------------------|-

-|-------------3------------------------------------------------------------|-

-|--------------------------------------------------------------------------|-

-|--------------------------------------------------------------------------|-

   Play twice



   [Verse] clean w/ fast flange

-|--------------------------------------------------------------------------|-

-|--------------------------------------------------------------------------|-

-|---5-4--------------------------------------------------------------------|-

-|-2-----3-2----------------------------------------------------------------|-

-|--------------------------------------------------------------------------|-

-|--------------------------------------------------------------------------|-

   Play 12 times.



   [Chorus] Distortion

-|------------------3-------------------6--4--------------------------------|-

-|--------5---------6---------5---------6--6--------------------------------|-

-|--------4---------5---------4---------5--5--------------------------------|-

-|-22-22--2--33-33-----22-22--2--33-33--------------------------------------|-

-|-22-22-----33-33-----22-22-----33-33--------------------------------------|-

-|-22-22-----33-33-----22-22-----33-33--------------------------------------|-

   PM.|      PM.|      PM.|      PM.|

   Play twice.



   [Verse] clean w/ fast flange

-|--------------------------------------------------------------------------|-

-|--------------------------------------------------------------------------|-

-|---5-4--------------------------------------------------------------------|-

-|-2-----3-2----------------------------------------------------------------|-

-|--------------------------------------------------------------------------|-

-|--------------------------------------------------------------------------|-

   Play 12 times.



   [Chorus] Distortion

-|------------------3-------------------6--4--------------------------------|-

-|--------5---------6---------5---------6--6--------------------------------|-

-|--------4---------5---------4---------5--5--------------------------------|-

-|-22-22--2--33-33-----22-22--2--33-33--------------------------------------|-

-|-22-22-----33-33-----22-22-----33-33--------------------------------------|-

-|-22-22-----33-33-----22-22-----33-33--------------------------------------|-

   PM.|      PM.|      PM.|      PM.|

   Play twice.



   [Bridge] Distortion (DJ or flange guitar in parenthesis)

-|--------------------------------------------------------------------------|-

-|--------------------------------------------------------------------------|-

-|-(1)----(4)----(1)----(2)-------------------------------------------------|-

-|-22-22--22-22--22-22--22-22-(3)-------------------------------------------|-

-|-22-22--22-22--22-22--22-22-----------------------------------------------|-

-|-22-22--22-22--22-22--22-22-----------------------------------------------|-

   PM.|   PM.|   PM.|   PM.|

   Play 4 times.



   [Chorus] Distortion

-|------------------3-------------------6--4-|------------------------------|-

-|--------5---------6---------5---------6--6-|------------------------------|-

-|--------4---------5---------4---------5--5-|------------------------------|-

-|-22-22--2--33-33-----22-22--2--33-33-------|-22-22------------------------|-

-|-22-22-----33-33-----22-22-----33-33-------|-22-22------------------------|-

-|-22-22-----33-33-----22-22-----33-33-------|-22-22------------------------|-

   PM.|      PM.|      PM.|      PM.|          PM.|

   Play 6 times.
Žádné komentáře
 


LP Underground 6.0: The Official Fan Club of Linkin Park