When this began...

Taby

Crawling

Linkin Park - Crawling
Intro

------------19------16----------14-------------------

-------14-----------------------------17--16----17---

-----------------------------------------------------

-----------------------------------------------------

-----------------------------------------------------

-----------------------------------------------------









Chorus  1.gtr

--------------------------------------------------------------------------------|

--------------------------------------------------------------------------------|

-11-11-11-11-11-11-11-11-11-11-11-11-11-11-11-11-5-5-5-5-5-5-5-5-5-5-5-5-5-5-5--|

--x--x--x--x--x--x--x--x--x--x--x--x--x--x--x--x--------------------------------|

--9--9--9--9--9--9--9--9--9--9--9--9--9--9--9--9-3-3-3-3-3-3-3-3-3-3-3-3-3-3-3--|

--------------------------------------------------------------------------------|







       2.gtr

--------------------------------------------------------------------------------|

--------------------------------------------------------------------------------|

--------------------------------------------------------------------------------|

---0----------------------------------------------8-----------------------------|

---0----------------------------------------------8-----------------------------|

---0----------------------------------------------8-----------------------------|











1.gtr

---------------------------------------------------------------------------------------||

---------------------------------------------------------------------------------------||

-10-10-10-10-10-10-10-10-10-10-10-10-10-10-10-10-9-9-9-9-9-9-9-9-9-9-9-9/12-12-12-12---||

--x--x--x--x--x--x--x--x--x--x--x--x--x--x--x--x-x-x-x-x-x-x-x-x-x-x-x-x/-x--x--x--x---||

--8--8--8--8--8--8--8--8--8--8--8--8--8--8--8--8-7-7-7-7-7-7-7-7-7-7-7-7/10-10-10-10---||

---------------------------------------------------------------------------------------||







2.gtr

-----------------------------------------------------------------------------------------||

-----------------------------------------------------------------------------------------||

-----------------------------------------------------------------------------------------||

--3-----------------------------------------------10----------------------7--------------||

--3-----------------------------------------------10----------------------7--------------||

--3-----------------------------------------------10----------------------7--------------||
Žádné komentáře
 


LP Underground 6.0: The Official Fan Club of Linkin Park