When this began...

Taby

Don't Stay

Linkin Park - Don't Stay
Inrto + Verse

----------------------------||

----------------------------||

----------------------------||

-0-0-0-7--3--3-5-5-5-8--7---||

-0-0-0-7--3--3-5-5-5-8--7---||

-0-0-0-7--3--3-5-5-5-8--7---||







Chorus

---------------------------------------------||

---------------------------------------------||

---------------------------------------------||

--0------0--7---8----10--5----5--7----3---1--||

--0------0--7---8----10--5----5--7----3---1--||

--0------0--7---8----10--5----5--7----3---1--||







Bridge

--------------------------------------||

--------------------------------------||

--------------------------------------||

--0------1-0-1-0--10-10-10-10-10--13--||

--0------1-0-1-0--10-10-10-10-10--13--||

--0------1-0-1-0--10-10-10-10-10--13--||









Outro              2x

------------------------------||-------------------------------

------------------------------||-------------------------------

------------------------------||-------------------------------

--0-0-0-7--3--3-5-5-5-8--7--7-||--0-0-0-7--3--0-1-1--1--x-x-x--

--0-0-0-7--3--3-5-5-5-8--7--7-||--0-0-0-7--3--0-1-1--1--x-x-x--

--0-0-0-7--3--3-5-5-5-8--7--7-||--0-0-0-7--3--0-1-1--1--x-x-x--
Žádné komentáře
 


LP Underground 6.0: The Official Fan Club of Linkin Park