When this began...

Taby

Easier To Run

Linkin Park - Easier To Run
Intro & Verse:

Eb|--------------------------------------|

Bb|----0—0-----8-----8—7---0-------------|

Gb|---------0-----------------2----------|  x4

Db|--------------------------------------|

Ab|--------------------------------------|

Db|--------------------------------------|



Chorus:

Eb|--------------------|

Bb|--------------------|

Gb|--------------------|

Db|-7-7--3-3--5-5--2-2-|

Ab|-7-7--3-3--5-5--2-2-|

Db|-7-7--3-3--5-5--2-2-|



Bridge:

Eb|-----------------------------------------|

Bb|-----------------------------------------|

Gb|-----------------------------------------|

Db|-3-3---5-5---7-7---2-2---3-3---5-5--5-5--|

Ab|-3-3---5-5---7-7---2-2---3-3---5-5--5-5--|

Db|-3-3---5-5---7-7---2-2---3-3---5-5--5-5--|



Storyline:



Intro

Chorus

Verse1

Chorus

Verse2

Bridge

Chorus x4
Žádné komentáře
 


LP Underground 6.0: The Official Fan Club of Linkin Park