When this began...

Taby

Figure.09

Linkin Park - Figure.09
intro                                        last time ends with this

|------------------------------------------|----------------|

|------------------------------------------|----------------|

|------------------------------------------|----------------|

|--0-----3--0-----3----0-----3-0h1p0h1p0-1-|-0-1-1-1-1--0-1-|

|-------------------5----------------------|-0-1-1-1-1--0-1-|

|-----5*-------5*---------5*---------------|-0-1-1-1-1--0-1-|



riff1                               

|----------------------------------------------|

|----------------------------------------------|

|----------------------------------------------|

|--0-----5---0-----5---0----5--0-1-1-1-1--0-1--|

|--0-----3---0-----3---0----3--0-1-1-1-1--0-1--|

|--0--5*-3---0--5*-3---0-5*-3--0-1-1-1-1--0-1--|

  

riff2

|---------------------------------------------|

|---------------------------------------------|

|---------------------------------------------|

|---------------------------------------------|

|---0--------0---------0------0-1-1-1-1--0-1--|

|---0--5*----0---5*----0--5*--0-1-1-1-1--0-1-*|



prechuros

|-------------------------------------|

|-------------------------------------|

|-------------------------------------|

|--------8----------8----------8------|

|--5--5--8---5---5--8---5---5--8---5--|

|--0--0--8---0---0--8---0---0--8---0--|


chorus

|--------------------------------------------------------|

|--------------------------------------------------------|

|--------------------------------------------------------|

|---0-0--0-0---0-8-8-8--10--8--3-3--3-3---3-5-5-5--7--7--|

|---0-0--0-0---0-8-8-8--8---8--3-3--3-3---3-5-5-5--7--7--|

|---0-0--0-0---0-8-8-8--8---8--3-3--3-3---3-5-5-5--7--7--|

3x



|--------------------------------------------------------|

|--------------------------------------------------------|

|--------------------------------------------------------|

|--0-0--0-0---0-8-8-8--10--8--3-3--3-3---3-7-7--7-1-1--1-|

|--0-0--0-0---0-8-8-8--8---8--3-3--3-3---3-7-7--7-1-1--1-|

|--0-0--0-0---0-8-8-8--8---8--3-3--3-3---3-7-7--7-1-1--1-|





riff3

|----------------------------------------------------------|

|----------------------------------------------------------|

|----------------------------------------------------------|

|--1--0--0--0--0--0-1-3---------1--0--0--0--0--0-1-3-------|

|--1--0--0--0--0--0-1-3----7b---1--0--0--0--0--0-1-3----5--|

|--1--0--0--0--0--0-1-3---------1--0--0--0--0--0-1-3-------|



|--------------------------------------------------------------|

|--------------------------------------------------------------|

|--------------------------------------------------------------|

|--1--0--0--0--0--0-1-3--------1--0--0--0--0--0-1-3------------|

|--1--0--0--0--0--0-1-3----7b--1--0--0--0--0--0-1-3--3--3---3--|

|--1--0--0--0--0--0-1-3--------1--0--0--0--0--0-1-3--3--3---3--|
Žádné komentáře
 


LP Underground 6.0: The Official Fan Club of Linkin Park