When this began...

Taby

Forgotten

Linkin Park - Forgotten
Intro/Chorus Part 1 (Heavily Distorted) Repeat Twice:



D# |-----------------------------------

A# |-----------------------------------

F# |-----------------------------------

C# |-3-2-2-2-2-2-2-2-2----3-2-2----*5--

G# |-3-2-2-2-2-2-2-2-2----3-2-2---*5---

C# |-3-2-2-2-2-2-2-2-2----3-2-2--------





D# |-----------------------------

A# |-----------------------------

F# |-----------------------------

C# |-3-2-2-2-2-2-2-2-2----3-2-2--

G# |-3-2-2-2-2-2-2-2-2----3-2-2--

C# |-3-2-2-2-2-2-2-2-2----3-2-2--



Verse (Use Echo) Play 4 Times:



D# |----------------------

A# |----------------------

F# |-----16-14--9-9-9h12--

C# |--14------------------

G# |----------------------

C# |----------------------



Chorus Part 2 (Heavily Distorted) (After Verse) Play 4 Times:



D# |-------------------------------------------

A# |-------------------------------------------

F# |------9/10-10-10---------------------------

C# |-7-7--9/10-10-10--10-10-10-9-9-9h10-10-10--

G# |-7-7--7/8--8--8---10-10-10-9-9-9h10-10-10--

C# |-7-7--------------10-10 10-9-9-9h10-10-10--





"Now you got me caught in the act..." Part:



D# |--------------

A# |--------------

F# |--------------

C# |--7-7-5-7--3--

G# |--7-7-5-7--3--

C# |--7-7-5-7--3--



Outro (Very Clean) Play Once. You can funk out on this ;-):



D# |-------------------------------------------

A# |-------------------------------------------

F# |------9/10-10-10---------------------------

C# |-7-7--9/10-10-10--10-10-10-9-9-9h10-10-10--

G# |-7-7--7/8--8--8---10-10-10-9-9-9h10-10-10--

C# |-7-7--------------10-10 10-9-9-9h10-10-10--
Žádné komentáře
 


LP Underground 6.0: The Official Fan Club of Linkin Park